  0
SECTION
  2
HEADER
  9
$ACADVER
  1
AC1015
  9
$ACADMAINTVER
 70
     6
  9
$DWGCODEPAGE
  3
ANSI_1254
  9
$INSBASE
 10
0.0
 20
0.0
 30
0.0
  9
$EXTMIN
 10
0.0
 20
0.0
 30
0.0
  9
$EXTMAX
 10
279.4
 20
215.9
 30
0.0
  9
$LIMMIN
 10
0.0
 20
0.0
  9
$LIMMAX
 10
279.4
 20
215.9
  9
$ORTHOMODE
 70
     0
  9
$REGENMODE
 70
     1
  9
$FILLMODE
 70
     1
  9
$QTEXTMODE
 70
     0
  9
$MIRRTEXT
 70
     1
  9
$LTSCALE
 40
1.0
  9
$ATTMODE
 70
     1
  9
$TEXTSIZE
 40
3.5
  9
$TRACEWID
 40
1.0
  9
$TEXTSTYLE
  7
Standard
  9
$CLAYER
  8
0
  9
$CELTYPE
  6
ByLayer
  9
$CECOLOR
 62
   256
  9
$CELTSCALE
 40
1.0
  9
$DISPSILH
 70
     0
  9
$DIMSCALE
 40
1.0
  9
$DIMASZ
 40
3.5
  9
$DIMEXO
 40
1.0
  9
$DIMDLI
 40
3.75
  9
$DIMRND
 40
0.0
  9
$DIMDLE
 40
0.0
  9
$DIMEXE
 40
1.0
  9
$DIMTP
 40
0.0
  9
$DIMTM
 40
0.0
  9
$DIMTXT
 40
3.5
  9
$DIMCEN
 40
2.5
  9
$DIMTSZ
 40
0.0
  9
$DIMTOL
 70
     0
  9
$DIMLIM
 70
     0
  9
$DIMTIH
 70
     1
  9
$DIMTOH
 70
     1
  9
$DIMSE1
 70
     0
  9
$DIMSE2
 70
     0
  9
$DIMTAD
 70
     1
  9
$DIMZIN
 70
     0
  9
$DIMBLK
  1

  9
$DIMASO
 70
     1
  9
$DIMSHO
 70
     1
  9
$DIMPOST
  1

  9
$DIMAPOST
  1

  9
$DIMALT
 70
     0
  9
$DIMALTD
 70
     3
  9
$DIMALTF
 40
0.0393700787
  9
$DIMLFAC
 40
1.0
  9
$DIMTOFL
 70
     1
  9
$DIMTVP
 40
0.0
  9
$DIMTIX
 70
     0
  9
$DIMSOXD
 70
     0
  9
$DIMSAH
 70
     0
  9
$DIMBLK1
  1

  9
$DIMBLK2
  1

  9
$DIMSTYLE
  2
ISO-25
  9
$DIMCLRD
 70
     0
  9
$DIMCLRE
 70
     0
  9
$DIMCLRT
 70
     0
  9
$DIMTFAC
 40
1.0
  9
$DIMGAP
 40
1.524
  9
$DIMJUST
 70
     0
  9
$DIMSD1
 70
     0
  9
$DIMSD2
 70
     0
  9
$DIMTOLJ
 70
     0
  9
$DIMTZIN
 70
     0
  9
$DIMALTZ
 70
     0
  9
$DIMALTTZ
 70
     0
  9
$DIMUPT
 70
     0
  9
$DIMDEC
 70
     2
  9
$DIMTDEC
 70
     2
  9
$DIMALTU
 70
     2
  9
$DIMALTTD
 70
     3
  9
$DIMTXSTY
  7
Standard
  9
$DIMAUNIT
 70
     0
  9
$DIMADEC
 70
     2
  9
$DIMALTRND
 40
0.0
  9
$DIMAZIN
 70
     0
  9
$DIMDSEP
 70
    44
  9
$DIMATFIT
 70
     3
  9
$DIMFRAC
 70
     0
  9
$DIMLDRBLK
  1

  9
$DIMLUNIT
 70
     2
  9
$DIMLWD
 70
    -2
  9
$DIMLWE
 70
    -2
  9
$DIMTMOVE
 70
     0
  9
$LUNITS
 70
     2
  9
$LUPREC
 70
     2
  9
$SKETCHINC
 40
1.0
  9
$FILLETRAD
 40
10.0
  9
$AUNITS
 70
     0
  9
$AUPREC
 70
     2
  9
$MENU
  1
.
  9
$ELEVATION
 40
0.0
  9
$PELEVATION
 40
0.0
  9
$THICKNESS
 40
0.0
  9
$LIMCHECK
 70
     0
  9
$CHAMFERA
 40
0.0
  9
$CHAMFERB
 40
0.0
  9
$CHAMFERC
 40
0.0
  9
$CHAMFERD
 40
0.0
  9
$SKPOLY
 70
     0
  9
$TDCREATE
 40
2458985.699497974
  9
$TDUCREATE
 40
2458985.574497974
  9
$TDUPDATE
 40
2458985.699498229
  9
$TDUUPDATE
 40
2458985.574498229
  9
$TDINDWG
 40
0.0000000116
  9
$TDUSRTIMER
 40
0.0000000116
  9
$USRTIMER
 70
     1
  9
$ANGBASE
 50
0.0
  9
$ANGDIR
 70
     0
  9
$PDMODE
 70
     0
  9
$PDSIZE
 40
-1.0
  9
$PLINEWID
 40
0.0
  9
$SPLFRAME
 70
     0
  9
$SPLINETYPE
 70
     6
  9
$SPLINESEGS
 70
     8
  9
$HANDSEED
  5
F1
  9
$SURFTAB1
 70
     6
  9
$SURFTAB2
 70
     6
  9
$SURFTYPE
 70
     6
  9
$SURFU
 70
     6
  9
$SURFV
 70
     6
  9
$UCSBASE
  2

  9
$UCSNAME
  2

  9
$UCSORG
 10
0.0
 20
0.0
 30
0.0
  9
$UCSXDIR
 10
1.0
 20
0.0
 30
0.0
  9
$UCSYDIR
 10
0.0
 20
1.0
 30
0.0
  9
$UCSORTHOREF
  2

  9
$UCSORTHOVIEW
 70
     0
  9
$UCSORGTOP
 10
0.0
 20
0.0
 30
0.0
  9
$UCSORGBOTTOM
 10
0.0
 20
0.0
 30
0.0
  9
$UCSORGLEFT
 10
0.0
 20
0.0
 30
0.0
  9
$UCSORGRIGHT
 10
0.0
 20
0.0
 30
0.0
  9
$UCSORGFRONT
 10
0.0
 20
0.0
 30
0.0
  9
$UCSORGBACK
 10
0.0
 20
0.0
 30
0.0
  9
$PUCSBASE
  2

  9
$PUCSNAME
  2

  9
$PUCSORG
 10
0.0
 20
0.0
 30
0.0
  9
$PUCSXDIR
 10
1.0
 20
0.0
 30
0.0
  9
$PUCSYDIR
 10
0.0
 20
1.0
 30
0.0
  9
$PUCSORTHOREF
  2

  9
$PUCSORTHOVIEW
 70
     0
  9
$PUCSORGTOP
 10
0.0
 20
0.0
 30
0.0
  9
$PUCSORGBOTTOM
 10
0.0
 20
0.0
 30
0.0
  9
$PUCSORGLEFT
 10
0.0
 20
0.0
 30
0.0
  9
$PUCSORGRIGHT
 10
0.0
 20
0.0
 30
0.0
  9
$PUCSORGFRONT
 10
0.0
 20
0.0
 30
0.0
  9
$PUCSORGBACK
 10
0.0
 20
0.0
 30
0.0
  9
$USERI1
 70
     0
  9
$USERI2
 70
     0
  9
$USERI3
 70
     0
  9
$USERI4
 70
     0
  9
$USERI5
 70
     0
  9
$USERR1
 40
0.0
  9
$USERR2
 40
0.0
  9
$USERR3
 40
0.0
  9
$USERR4
 40
0.0
  9
$USERR5
 40
0.0
  9
$WORLDVIEW
 70
     1
  9
$SHADEDGE
 70
     3
  9
$SHADEDIF
 70
    70
  9
$TILEMODE
 70
     1
  9
$MAXACTVP
 70
    64
  9
$PINSBASE
 10
0.0
 20
0.0
 30
0.0
  9
$PLIMCHECK
 70
     0
  9
$PEXTMIN
 10
1.0000000000E+20
 20
1.0000000000E+20
 30
1.0000000000E+20
  9
$PEXTMAX
 10
-1.0000000000E+20
 20
-1.0000000000E+20
 30
-1.0000000000E+20
  9
$PLIMMIN
 10
0.0
 20
0.0
  9
$PLIMMAX
 10
420.0
 20
297.0
  9
$UNITMODE
 70
     0
  9
$VISRETAIN
 70
     1
  9
$PLINEGEN
 70
     0
  9
$PSLTSCALE
 70
     1
  9
$TREEDEPTH
 70
  3020
  9
$CMLSTYLE
  2
Standard
  9
$CMLJUST
 70
     0
  9
$CMLSCALE
 40
20.0
  9
$PROXYGRAPHICS
 70
     1
  9
$MEASUREMENT
 70
     1
  9
$CELWEIGHT
370
    -1
  9
$ENDCAPS
280
     0
  9
$JOINSTYLE
280
     0
  9
$LWDISPLAY
290
     1
  9
$INSUNITS
 70
     4
  9
$HYPERLINKBASE
  1

  9
$STYLESHEET
  1

  9
$XEDIT
290
     1
  9
$CEPSNTYPE
380
     0
  9
$PSTYLEMODE
290
     1
  9
$FINGERPRINTGUID
  2
{a2ce8fc6-a243-40ff-bbc2-f62f8c41cb17}
  9
$VERSIONGUID
  2
{FAEB1C32-E019-11D5-929B-00C0DF256EC4}
  9
$EXTNAMES
290
     1
  9
$PSVPSCALE
 40
0.0
  9
$OLESTARTUP
290
     0
  0
ENDSEC
  0
SECTION
  2
CLASSES
  0
CLASS
  1
ACDBDICTIONARYWDFLT
  2
AcDbDictionaryWithDefault
  3
ObjectDBX Classes
 90
        0
280
     0
281
     0
  0
CLASS
  1
VISUALSTYLE
  2
AcDbVisualStyle
  3
ObjectDBX Classes
 90
     4095
280
     0
281
     0
  0
CLASS
  1
MATERIAL
  2
AcDbMaterial
  3
ObjectDBX Classes
 90
     1153
280
     0
281
     0
  0
CLASS
  1
SCALE
  2
AcDbScale
  3
ObjectDBX Classes
 90
     1153
280
     0
281
     0
  0
CLASS
  1
TABLESTYLE
  2
AcDbTableStyle
  3
ObjectDBX Classes
 90
     4095
280
     0
281
     0
  0
CLASS
  1
MLEADERSTYLE
  2
AcDbMLeaderStyle
  3
ACDB_MLEADERSTYLE_CLASS
 90
     4095
280
     0
281
     0
  0
CLASS
  1
SUN
  2
AcDbSun
  3
SCENEOE
 90
     1153
280
     0
281
     0
  0
CLASS
  1
ACDBPLACEHOLDER
  2
AcDbPlaceHolder
  3
ObjectDBX Classes
 90
        0
280
     0
281
     0
  0
CLASS
  1
LAYOUT
  2
AcDbLayout
  3
ObjectDBX Classes
 90
        0
280
     0
281
     0
  0
ENDSEC
  0
SECTION
  2
TABLES
  0
TABLE
  2
VPORT
  5
8
330
0
100
AcDbSymbolTable
 70
     1
  0
VPORT
  5
29
330
8
100
AcDbSymbolTableRecord
100
AcDbViewportTableRecord
  2
*Active
 70
     0
 10
0.0
 20
0.0
 11
1.0
 21
1.0
 12
139.7
 22
107.95
 13
0.0
 23
0.0
 14
10.0
 24
10.0
 15
10.0
 25
10.0
 16
0.0
 26
0.0
 36
1.0
 17
0.0
 27
0.0
 37
0.0
 40
215.9
 41
1.2941176471
 42
50.0
 43
0.0
 44
0.0
 50
0.0
 51
0.0
 71
     0
 72
  2000
 73
     1
 74
     3
 75
     0
 76
     0
 77
     0
 78
     0
281
     0
 65
     1
110
0.0
120
0.0
130
0.0
111
1.0
121
0.0
131
0.0
112
0.0
122
1.0
132
0.0
 79
     0
146
0.0
  0
ENDTAB
  0
TABLE
  2
LTYPE
  5
5
330
0
100
AcDbSymbolTable
 70
     6
  0
LTYPE
  5
14
330
5
100
AcDbSymbolTableRecord
100
AcDbLinetypeTableRecord
  2
ByBlock
 70
     0
  3

 72
    65
 73
     0
 40
0.0
  0
LTYPE
  5
15
330
5
100
AcDbSymbolTableRecord
100
AcDbLinetypeTableRecord
  2
ByLayer
 70
     0
  3

 72
    65
 73
     0
 40
0.0
  0
LTYPE
  5
16
330
5
100
AcDbSymbolTableRecord
100
AcDbLinetypeTableRecord
  2
Continuous
 70
     0
  3
Solid line
 72
    65
 73
     0
 40
0.0
  0
LTYPE
  5
6E
330
5
100
AcDbSymbolTableRecord
100
AcDbLinetypeTableRecord
  2
HIDDEN
 70
     0
  3
Hidden __ __ __ __ __ __ __ __ __ __ __ __ __ __
 72
    65
 73
     2
 40
1.905
 49
1.27
 74
     0
 49
-0.635
 74
     0
  0
LTYPE
  5
6F
330
5
100
AcDbSymbolTableRecord
100
AcDbLinetypeTableRecord
  2
PHANTOM
 70
     0
  3
Phantom ______  __  __  ______  __  __  ______
 72
    65
 73
     6
 40
12.7
 49
6.35
 74
     0
 49
-1.27
 74
     0
 49
1.27
 74
     0
 49
-1.27
 74
     0
 49
1.27
 74
     0
 49
-1.27
 74
     0
  0
LTYPE
  5
70
330
5
100
AcDbSymbolTableRecord
100
AcDbLinetypeTableRecord
  2
CENTER
 70
     0
  3
Center ____ _ ____ _ ____ _ ____ _ ____ _ ____
 72
    65
 73
     4
 40
10.16
 49
6.35
 74
     0
 49
-1.27
 74
     0
 49
1.27
 74
     0
 49
-1.27
 74
     0
  0
LTYPE
  5
71
330
5
100
AcDbSymbolTableRecord
100
AcDbLinetypeTableRecord
  2
CENTERX2
 70
     0
  3
Center (2x) ________  __  ________  __  _____
 72
    65
 73
     4
 40
20.32
 49
12.7
 74
     0
 49
-2.54
 74
     0
 49
2.54
 74
     0
 49
-2.54
 74
     0
  0
LTYPE
  5
72
330
5
100
AcDbSymbolTableRecord
100
AcDbLinetypeTableRecord
  2
DOT2
 70
     0
  3
Dot (.5x) ........................................
 72
    65
 73
     2
 40
0.635
 49
0.0
 74
     0
 49
-0.635
 74
     0
  0
ENDTAB
  0
TABLE
  2
LAYER
  5
2
330
0
100
AcDbSymbolTable
 70
    17
  0
LAYER
  5
10
330
2
100
AcDbSymbolTableRecord
100
AcDbLayerTableRecord
  2
0
 70
     0
 62
     7
  6
Continuous
370
    -3
390
F
  0
LAYER
  5
73
330
2
100
AcDbSymbolTableRecord
100
AcDbLayerTableRecord
  2
FORMAT
 70
     0
 62
     7
  6
Continuous
370
    -3
390
F
  0
LAYER
  5
74
330
2
100
AcDbSymbolTableRecord
100
AcDbLayerTableRecord
  2
YARDIMCI_GEOMETRI
 70
     0
 62
    -6
  6
Continuous
290
     0
370
    -3
390
F
  0
LAYER
  5
75
330
2
100
AcDbSymbolTableRecord
100
AcDbLayerTableRecord
  2
SAYFA_CERCEVESI
 70
     0
 62
     7
  6
Continuous
370
    25
390
F
  0
LAYER
  5
76
330
2
100
AcDbSymbolTableRecord
100
AcDbLayerTableRecord
  2
ANTET
 70
     0
 62
     7
  6
Continuous
370
    -3
390
F
  0
LAYER
  5
77
330
2
100
AcDbSymbolTableRecord
100
AcDbLayerTableRecord
  2
OLCU
 70
     0
 62
   150
  6
Continuous
370
    -3
390
F
  0
LAYER
  5
78
330
2
100
AcDbSymbolTableRecord
100
AcDbLayerTableRecord
  2
METIN
 70
     0
 62
    96
  6
Continuous
370
    -3
390
F
  0
LAYER
  5
79
330
2
100
AcDbSymbolTableRecord
100
AcDbLayerTableRecord
  2
BALON
 70
     0
 62
     5
  6
Continuous
370
    -3
390
F
  0
LAYER
  5
7A
330
2
100
AcDbSymbolTableRecord
100
AcDbLayerTableRecord
  2
VURGU
 70
     0
 62
     7
  6
Continuous
370
    -3
390
F
  0
LAYER
  5
7B
330
2
100
AcDbSymbolTableRecord
100
AcDbLayerTableRecord
  2
SILIK
 70
     0
 62
     7
  6
Continuous
370
    -3
390
F
  0
LAYER
  5
7C
330
2
100
AcDbSymbolTableRecord
100
AcDbLayerTableRecord
  2
MODEL
 70
     0
 62
     7
  6
Continuous
370
    -3
390
F
  0
LAYER
  5
7D
330
2
100
AcDbSymbolTableRecord
100
AcDbLayerTableRecord
  2
DETAYLANDıRMA
 70
     0
 62
   190
  6
Continuous
370
    -3
390
F
  0
LAYER
  5
7E
330
2
100
AcDbSymbolTableRecord
100
AcDbLayerTableRecord
  2
TOLERANS
 70
     0
 62
   230
  6
Continuous
370
    -3
390
F
  0
LAYER
  5
7F
330
2
100
AcDbSymbolTableRecord
100
AcDbLayerTableRecord
  2
MERKEZ_CIZGILERI
 70
     0
 62
    30
  6
Continuous
370
    -3
390
F
  0
LAYER
  5
80
330
2
100
AcDbSymbolTableRecord
100
AcDbLayerTableRecord
  2
KESIT-DETAY_CIZGILERI
 70
     0
 62
     7
  6
Continuous
370
    -3
390
F
  0
LAYER
  5
81
330
2
100
AcDbSymbolTableRecord
100
AcDbLayerTableRecord
  2
\U+041E\U+0421\U+0415\U+0412\U+042B\U+0415
 70
     0
 62
     7
  6
Continuous
370
    -3
390
F
  0
LAYER
  5
82
330
2
100
AcDbSymbolTableRecord
100
AcDbLayerTableRecord
  2
\U+0412\U+041E\U+0414\U+042F\U+041D\U+042B\U+0415_\U+0417\U+041D\U+0410\U+041A\U+0418
 70
     0
 62
    11
  6
Continuous
370
    -3
390
F
  0
ENDTAB
  0
TABLE
  2
STYLE
  5
3
330
0
100
AcDbSymbolTable
 70
     1
  0
STYLE
  5
11
330
3
100
AcDbSymbolTableRecord
100
AcDbTextStyleTableRecord
  2
Standard
 70
     0
 40
0.0
 41
1.0
 50
0.0
 71
     0
 42
3.5
  3
txt
  4

  0
ENDTAB
  0
TABLE
  2
VIEW
  5
6
330
0
100
AcDbSymbolTable
 70
     0
  0
ENDTAB
  0
TABLE
  2
UCS
  5
7
330
0
100
AcDbSymbolTable
 70
     0
  0
ENDTAB
  0
TABLE
  2
APPID
  5
9
330
0
100
AcDbSymbolTable
 70
     1
  0
APPID
  5
12
330
9
100
AcDbSymbolTableRecord
100
AcDbRegAppTableRecord
  2
ACAD
 70
     0
  0
ENDTAB
  0
TABLE
  2
DIMSTYLE
  5
A
330
0
100
AcDbSymbolTable
 70
     1
100
AcDbDimStyleTable
  0
DIMSTYLE
105
27
330
A
100
AcDbSymbolTableRecord
100
AcDbDimStyleTableRecord
  2
ISO-25
 70
     0
 41
2.5
 42
0.625
 43
3.75
 44
1.25
 73
     0
 74
     0
 77
     1
 78
     8
140
2.5
141
2.5
143
0.0393700787
147
0.625
171
     3
172
     1
178
     0
271
     2
272
     2
274
     3
278
    44
283
     0
284
     8
340
11
  0
ENDTAB
  0
TABLE
  2
BLOCK_RECORD
  5
1
330
0
100
AcDbSymbolTable
 70
     2
  0
BLOCK_RECORD
  5
1F
330
1
100
AcDbSymbolTableRecord
100
AcDbBlockTableRecord
  2
*Model_Space
340
22
  0
BLOCK_RECORD
  5
1B
330
1
100
AcDbSymbolTableRecord
100
AcDbBlockTableRecord
  2
*Paper_Space
340
1E
  0
BLOCK_RECORD
  5
23
330
1
100
AcDbSymbolTableRecord
100
AcDbBlockTableRecord
  2
*Paper_Space0
340
26
  0
BLOCK_RECORD
  5
88
330
1
100
AcDbSymbolTableRecord
100
AcDbBlockTableRecord
  2
SW_CENTERMARKSYMBOL_0
340
0
102
{BLKREFS
331
93
102
}
  0
ENDTAB
  0
ENDSEC
  0
SECTION
  2
BLOCKS
  0
BLOCK
  5
20
330
1F
100
AcDbEntity
  8
0
100
AcDbBlockBegin
  2
*Model_Space
 70
     0
 10
0.0
 20
0.0
 30
0.0
  3
*Model_Space
  1

  0
ENDBLK
  5
21
330
1F
100
AcDbEntity
  8
0
100
AcDbBlockEnd
  0
BLOCK
  5
1C
330
1B
100
AcDbEntity
 67
     1
  8
0
100
AcDbBlockBegin
  2
*Paper_Space
 70
     0
 10
0.0
 20
0.0
 30
0.0
  3
*Paper_Space
  1

  0
ENDBLK
  5
1D
330
1B
100
AcDbEntity
 67
     1
  8
0
100
AcDbBlockEnd
  0
BLOCK
  5
24
330
23
100
AcDbEntity
  8
0
100
AcDbBlockBegin
  2
*Paper_Space0
 70
     0
 10
0.0
 20
0.0
 30
0.0
  3
*Paper_Space0
  1

  0
ENDBLK
  5
25
330
23
100
AcDbEntity
  8
0
100
AcDbBlockEnd
  0
BLOCK
  5
89
330
88
100
AcDbEntity
  8
0
100
AcDbBlockBegin
  2
SW_CENTERMARKSYMBOL_0
 70
     0
 10
0.0
 20
0.0
 30
0.0
  3
SW_CENTERMARKSYMBOL_0
  1

  0
LINE
  5
8B
330
88
100
AcDbEntity
  8
FORMAT
 62
     0
100
AcDbLine
 10
0.0
 20
0.0
 30
0.0
 11
0.0
 21
2.5
 31
0.0
  0
LINE
  5
8C
330
88
100
AcDbEntity
  8
FORMAT
 62
     0
100
AcDbLine
 10
0.0
 20
0.0
 30
0.0
 11
-2.5
 21
0.0
 31
0.0
  0
LINE
  5
8D
330
88
100
AcDbEntity
  8
FORMAT
 62
     0
100
AcDbLine
 10
0.0
 20
0.0
 30
0.0
 11
0.0
 21
-2.5
 31
0.0
  0
LINE
  5
8E
330
88
100
AcDbEntity
  8
FORMAT
 62
     0
100
AcDbLine
 10
0.0
 20
0.0
 30
0.0
 11
2.5
 21
0.0
 31
0.0
  0
LINE
  5
8F
330
88
100
AcDbEntity
  8
FORMAT
 62
     0
100
AcDbLine
 10
0.0
 20
5.0
 30
0.0
 11
0.0
 21
102.5
 31
0.0
  0
LINE
  5
90
330
88
100
AcDbEntity
  8
FORMAT
 62
     0
100
AcDbLine
 10
-5.0
 20
0.0
 30
0.0
 11
-102.5
 21
0.0
 31
0.0
  0
LINE
  5
91
330
88
100
AcDbEntity
  8
FORMAT
 62
     0
100
AcDbLine
 10
0.0
 20
-5.0
 30
0.0
 11
0.0
 21
-102.5
 31
0.0
  0
LINE
  5
92
330
88
100
AcDbEntity
  8
FORMAT
 62
     0
100
AcDbLine
 10
5.0
 20
0.0
 30
0.0
 11
102.5
 21
0.0
 31
0.0
  0
ENDBLK
  5
8A
330
88
100
AcDbEntity
  8
0
100
AcDbBlockEnd
  0
ENDSEC
  0
SECTION
  2
ENTITIES
  0
CIRCLE
  5
83
330
1F
100
AcDbEntity
  8
0
  6
Continuous
 62
     7
370
    25
100
AcDbCircle
 10
139.395004093
 20
107.5851680021
 30
0.0
 40
100.0
  0
CIRCLE
  5
84
330
1F
100
AcDbEntity
  8
0
  6
Continuous
 62
     7
370
    25
100
AcDbCircle
 10
139.395004093
 20
107.5851680021
 30
0.0
 40
81.80000000000001
  0
CIRCLE
  5
85
330
1F
100
AcDbEntity
  8
0
  6
Continuous
 62
     7
370
    25
100
AcDbCircle
 10
139.395004093
 20
107.5851680021
 30
0.0
 40
81.17078638060768
  0
CIRCLE
  5
86
330
1F
100
AcDbEntity
  8
0
  6
Continuous
 62
     7
370
    25
100
AcDbCircle
 10
139.395004093
 20
107.5851680021
 30
0.0
 40
45.62921361939233
  0
CIRCLE
  5
87
330
1F
100
AcDbEntity
  8
0
  6
Continuous
 62
     7
370
    25
100
AcDbCircle
 10
139.395004093
 20
107.5851680021
 30
0.0
 40
45.00000000000001
  0
INSERT
  5
93
330
1F
100
AcDbEntity
  8
FORMAT
 62
     7
100
AcDbBlockReference
  2
SW_CENTERMARKSYMBOL_0
 10
139.395004093
 20
107.5851680021
 30
0.0
  0
LINE
  5
94
330
1F
100
AcDbEntity
  8
0
  6
Continuous
 62
     7
370
    25
100
AcDbLine
 10
-194.9098454384
 20
207.5851694922
 30
0.0
 11
-306.3915865092
 21
207.5851694922
 31
0.0
  0
LINE
  5
95
330
1F
100
AcDbEntity
  8
0
  6
Continuous
 62
     7
370
    25
100
AcDbLine
 10
-306.3915865092
 20
7.585166512
 30
0.0
 11
-194.9098454384
 21
7.585166512
 31
0.0
  0
ARC
  5
96
330
1F
100
AcDbEntity
  8
0
  6
Continuous
 62
     7
370
    25
100
AcDbCircle
 10
-194.9098436868
 20
205.5851680021
 30
0.0
 40
2.000000000000028
100
AcDbArc
 50
60.9453959009
 51
90.0
  0
ARC
  5
97
330
1F
100
AcDbEntity
  8
0
  6
Continuous
 62
     7
370
    25
100
AcDbCircle
 10
-194.9098436868
 20
9.5851680021
 30
0.0
 40
2.000000000000002
100
AcDbArc
 50
270.0
 51
299.0546040991
  0
LINE
  5
98
330
1F
100
AcDbEntity
  8
0
  6
Continuous
 62
     7
370
    25
100
AcDbLine
 10
-193.9385579495
 20
7.8368545751
 30
0.0
 11
-113.8446265428
 21
52.3334839623
 31
0.0
  0
LINE
  5
99
330
1F
100
AcDbEntity
  8
0
  6
Continuous
 62
     7
370
    25
100
AcDbLine
 10
-113.8446265428
 20
162.8368520419
 30
0.0
 11
-193.9385579495
 21
207.3334814291
 31
0.0
  0
ARC
  5
9A
330
1F
100
AcDbEntity
  8
0
  6
Continuous
 62
     7
370
    25
100
AcDbCircle
 10
-112.873339574
 20
164.5851680021
 30
0.0
 40
2.000000000000028
100
AcDbArc
 50
240.9453959009
 51
270.0
  0
ARC
  5
9B
330
1F
100
AcDbEntity
  8
0
  6
Continuous
 62
     7
370
    25
100
AcDbCircle
 10
-112.873339574
 20
50.5851680021
 30
0.0
 40
2.00000000000001
100
AcDbArc
 50
90.0
 51
119.0546040991
  0
LINE
  5
9C
330
1F
100
AcDbEntity
  8
0
  6
Continuous
 62
     7
370
    25
100
AcDbLine
 10
-31.3915954499
 20
162.5851677041
 30
0.0
 11
-112.8733390538
 21
162.5851677041
 31
0.0
  0
LINE
  5
9D
330
1F
100
AcDbEntity
  8
0
  6
Continuous
 62
     7
370
    25
100
AcDbLine
 10
-112.8733390538
 20
52.5851683001
 30
0.0
 11
-31.3915954499
 21
52.5851683001
 31
0.0
  0
LINE
  5
9E
330
1F
100
AcDbEntity
  8
0
  6
Continuous
 62
     7
370
    25
100
AcDbLine
 10
-306.3915865092
 20
207.5851694922
 30
0.0
 11
-306.3915865092
 21
7.585166512
 31
0.0
  0
LINE
  5
9F
330
1F
100
AcDbEntity
  8
0
  6
Continuous
 62
     7
370
    25
100
AcDbLine
 10
-31.3915954499
 20
162.5851677041
 30
0.0
 11
-31.3915954499
 21
52.5851683001
 31
0.0
  0
LINE
  5
A0
330
1F
100
AcDbEntity
  8
0
  6
Continuous
 62
     1
370
    25
100
AcDbLine
 10
-194.9098454384
 20
207.5851694922
 30
0.0
 11
-194.9098454384
 21
7.585166512
 31
0.0
  0
LINE
  5
A1
330
1F
100
AcDbEntity
  8
0
  6
Continuous
 62
     1
370
    25
100
AcDbLine
 10
-193.9385579495
 20
207.3334814291
 30
0.0
 11
-193.9385579495
 21
7.8368545751
 31
0.0
  0
LINE
  5
A2
330
1F
100
AcDbEntity
  8
0
  6
Continuous
 62
     1
370
    25
100
AcDbLine
 10
-113.8446265428
 20
162.8368520419
 30
0.0
 11
-113.8446265428
 21
52.3334839623
 31
0.0
  0
LINE
  5
A3
330
1F
100
AcDbEntity
  8
0
  6
Continuous
 62
     1
370
    25
100
AcDbLine
 10
-112.8733390538
 20
162.5851677041
 30
0.0
 11
-112.8733390538
 21
52.5851683001
 31
0.0
  0
LINE
  5
A4
330
1F
100
AcDbEntity
  8
0
  6
Continuous
 62
     7
370
    25
100
AcDbLine
 10
464.6389352887
 20
7.585166512
 30
0.0
 11
576.1206763594
 21
7.585166512
 31
0.0
  0
LINE
  5
A5
330
1F
100
AcDbEntity
  8
0
  6
Continuous
 62
     7
370
    25
100
AcDbLine
 10
576.1206763594
 20
207.5851694922
 30
0.0
 11
464.6389352887
 21
207.5851694922
 31
0.0
  0
ARC
  5
A6
330
1F
100
AcDbEntity
  8
0
  6
Continuous
 62
     7
370
    25
100
AcDbCircle
 10
464.638933537
 20
9.5851680021
 30
0.0
 40
2.000000000000002
100
AcDbArc
 50
240.9453959009
 51
270.0
  0
ARC
  5
A7
330
1F
100
AcDbEntity
  8
0
  6
Continuous
 62
     7
370
    25
100
AcDbCircle
 10
464.638933537
 20
205.5851680021
 30
0.0
 40
2.000000000000028
100
AcDbArc
 50
90.0
 51
119.0546040991
  0
LINE
  5
A8
330
1F
100
AcDbEntity
  8
0
  6
Continuous
 62
     7
370
    25
100
AcDbLine
 10
463.6676477997
 20
207.3334814291
 30
0.0
 11
383.573716393
 21
162.8368520419
 31
0.0
  0
LINE
  5
A9
330
1F
100
AcDbEntity
  8
0
  6
Continuous
 62
     7
370
    25
100
AcDbLine
 10
383.573716393
 20
52.3334839623
 30
0.0
 11
463.6676477997
 21
7.8368545751
 31
0.0
  0
ARC
  5
AA
330
1F
100
AcDbEntity
  8
0
  6
Continuous
 62
     7
370
    25
100
AcDbCircle
 10
382.6024294243
 20
50.5851680021
 30
0.0
 40
2.000000000000031
100
AcDbArc
 50
60.9453959009
 51
90.0
  0
ARC
  5
AB
330
1F
100
AcDbEntity
  8
0
  6
Continuous
 62
     7
370
    25
100
AcDbCircle
 10
382.6024294243
 20
164.5851680021
 30
0.0
 40
2.000000000000028
100
AcDbArc
 50
270.0
 51
299.0546040991
  0
LINE
  5
AC
330
1F
100
AcDbEntity
  8
0
  6
Continuous
 62
     7
370
    25
100
AcDbLine
 10
301.1206853001
 20
52.5851683001
 30
0.0
 11
382.6024289041
 21
52.5851683001
 31
0.0
  0
LINE
  5
AD
330
1F
100
AcDbEntity
  8
0
  6
Continuous
 62
     7
370
    25
100
AcDbLine
 10
382.6024289041
 20
162.5851677041
 30
0.0
 11
301.1206853001
 21
162.5851677041
 31
0.0
  0
LINE
  5
AE
330
1F
100
AcDbEntity
  8
0
  6
Continuous
 62
     7
370
    25
100
AcDbLine
 10
576.1206763594
 20
107.5851680021
 30
0.0
 11
576.1206763594
 21
207.5851694922
 31
0.0
  0
LINE
  5
AF
330
1F
100
AcDbEntity
  8
0
  6
Continuous
 62
     7
370
    25
100
AcDbLine
 10
576.1206763594
 20
7.585166512
 30
0.0
 11
576.1206763594
 21
107.5851680021
 31
0.0
  0
LINE
  5
B0
330
1F
100
AcDbEntity
  8
0
  6
Continuous
 62
     7
370
    25
100
AcDbLine
 10
301.1206853001
 20
107.5851680021
 30
0.0
 11
301.1206853001
 21
162.5851677041
 31
0.0
  0
LINE
  5
B1
330
1F
100
AcDbEntity
  8
0
  6
Continuous
 62
     7
370
    25
100
AcDbLine
 10
301.1206853001
 20
52.5851683001
 30
0.0
 11
301.1206853001
 21
107.5851680021
 31
0.0
  0
LINE
  5
B2
330
1F
100
AcDbEntity
  8
0
  6
Continuous
 62
     1
370
    25
100
AcDbLine
 10
464.6389352887
 20
107.5851680021
 30
0.0
 11
464.6389352887
 21
207.5851694922
 31
0.0
  0
LINE
  5
B3
330
1F
100
AcDbEntity
  8
0
  6
Continuous
 62
     1
370
    25
100
AcDbLine
 10
464.6389352887
 20
7.585166512
 30
0.0
 11
464.6389352887
 21
107.5851680021
 31
0.0
  0
LINE
  5
B4
330
1F
100
AcDbEntity
  8
0
  6
Continuous
 62
     1
370
    25
100
AcDbLine
 10
463.6676477997
 20
107.5851680021
 30
0.0
 11
463.6676477997
 21
207.3334814291
 31
0.0
  0
LINE
  5
B5
330
1F
100
AcDbEntity
  8
0
  6
Continuous
 62
     1
370
    25
100
AcDbLine
 10
463.6676477997
 20
7.8368545751
 30
0.0
 11
463.6676477997
 21
107.5851680021
 31
0.0
  0
LINE
  5
B6
330
1F
100
AcDbEntity
  8
0
  6
Continuous
 62
     1
370
    25
100
AcDbLine
 10
383.573716393
 20
107.5851680021
 30
0.0
 11
383.573716393
 21
162.8368520419
 31
0.0
  0
LINE
  5
B7
330
1F
100
AcDbEntity
  8
0
  6
Continuous
 62
     1
370
    25
100
AcDbLine
 10
383.573716393
 20
52.3334839623
 30
0.0
 11
383.573716393
 21
107.5851680021
 31
0.0
  0
LINE
  5
B8
330
1F
100
AcDbEntity
  8
0
  6
Continuous
 62
     1
370
    25
100
AcDbLine
 10
382.6024289041
 20
107.5851680021
 30
0.0
 11
382.6024289041
 21
162.5851677041
 31
0.0
  0
LINE
  5
B9
330
1F
100
AcDbEntity
  8
0
  6
Continuous
 62
     1
370
    25
100
AcDbLine
 10
382.6024289041
 20
52.5851683001
 30
0.0
 11
382.6024289041
 21
107.5851680021
 31
0.0
  0
LINE
  5
BA
330
1F
100
AcDbEntity
  8
0
  6
Continuous
 62
     7
370
    25
100
AcDbLine
 10
239.3950055832
 20
399.2297510511
 30
0.0
 11
239.3950055832
 21
510.7114921219
 31
0.0
  0
LINE
  5
BB
330
1F
100
AcDbEntity
  8
0
  6
Continuous
 62
     7
370
    25
100
AcDbLine
 10
39.3950026029
 20
510.7114921219
 30
0.0
 11
39.3950026029
 21
399.2297510511
 31
0.0
  0
ARC
  5
BC
330
1F
100
AcDbEntity
  8
0
  6
Continuous
 62
     7
370
    25
100
AcDbCircle
 10
237.395004093
 20
399.2297492995
 30
0.0
 40
2.000000000000022
100
AcDbArc
 50
330.9453959009
 51
0.0
  0
ARC
  5
BD
330
1F
100
AcDbEntity
  8
0
  6
Continuous
 62
     7
370
    25
100
AcDbCircle
 10
41.395004093
 20
399.2297492995
 30
0.0
 40
2.0
100
AcDbArc
 50
180.0
 51
209.0546040991
  0
LINE
  5
BE
330
1F
100
AcDbEntity
  8
0
  6
Continuous
 62
     7
370
    25
100
AcDbLine
 10
39.6466906661
 20
398.2584635622
 30
0.0
 11
84.1433200532
 21
318.1645321555
 31
0.0
  0
LINE
  5
BF
330
1F
100
AcDbEntity
  8
0
  6
Continuous
 62
     7
370
    25
100
AcDbLine
 10
194.6466881329
 20
318.1645321555
 30
0.0
 11
239.14331752
 21
398.2584635622
 31
0.0
  0
ARC
  5
C0
330
1F
100
AcDbEntity
  8
0
  6
Continuous
 62
     7
370
    25
100
AcDbCircle
 10
196.395004093
 20
317.1932451867
 30
0.0
 40
2.000000000000025
100
AcDbArc
 50
150.9453959009
 51
180.0
  0
ARC
  5
C1
330
1F
100
AcDbEntity
  8
0
  6
Continuous
 62
     7
370
    25
100
AcDbCircle
 10
82.395004093
 20
317.1932451867
 30
0.0
 40
2.000000000000025
100
AcDbArc
 50
0.0
 51
29.0546040991
  0
LINE
  5
C2
330
1F
100
AcDbEntity
  8
0
  6
Continuous
 62
     7
370
    25
100
AcDbLine
 10
194.395003795
 20
235.7115010626
 30
0.0
 11
194.395003795
 21
317.1932446665
 31
0.0
  0
LINE
  5
C3
330
1F
100
AcDbEntity
  8
0
  6
Continuous
 62
     7
370
    25
100
AcDbLine
 10
84.3950043911
 20
317.1932446665
 30
0.0
 11
84.3950043911
 21
235.7115010626
 31
0.0
  0
LINE
  5
C4
330
1F
100
AcDbEntity
  8
0
  6
Continuous
 62
     7
370
    25
100
AcDbLine
 10
239.3950055832
 20
510.7114921219
 30
0.0
 11
39.3950026029
 21
510.7114921219
 31
0.0
  0
LINE
  5
C5
330
1F
100
AcDbEntity
  8
0
  6
Continuous
 62
     7
370
    25
100
AcDbLine
 10
194.395003795
 20
235.7115010626
 30
0.0
 11
84.3950043911
 21
235.7115010626
 31
0.0
  0
LINE
  5
C6
330
1F
100
AcDbEntity
  8
0
  6
Continuous
 62
     1
370
    25
100
AcDbLine
 10
239.3950055832
 20
399.2297510511
 30
0.0
 11
39.3950026029
 21
399.2297510511
 31
0.0
  0
LINE
  5
C7
330
1F
100
AcDbEntity
  8
0
  6
Continuous
 62
     1
370
    25
100
AcDbLine
 10
239.14331752
 20
398.2584635622
 30
0.0
 11
39.6466906661
 21
398.2584635622
 31
0.0
  0
LINE
  5
C8
330
1F
100
AcDbEntity
  8
0
  6
Continuous
 62
     1
370
    25
100
AcDbLine
 10
194.6466881329
 20
318.1645321555
 30
0.0
 11
84.1433200532
 21
318.1645321555
 31
0.0
  0
LINE
  5
C9
330
1F
100
AcDbEntity
  8
0
  6
Continuous
 62
     1
370
    25
100
AcDbLine
 10
194.395003795
 20
317.1932446665
 30
0.0
 11
84.3950043911
 21
317.1932446665
 31
0.0
  0
LINE
  5
CA
330
1F
100
AcDbEntity
  8
0
  6
Continuous
 62
     7
370
    25
100
AcDbLine
 10
39.3950026029
 20
-196.5911157054
 30
0.0
 11
39.3950026029
 21
-308.0728567761
 31
0.0
  0
LINE
  5
CB
330
1F
100
AcDbEntity
  8
0
  6
Continuous
 62
     7
370
    25
100
AcDbLine
 10
239.3950055832
 20
-308.0728567761
 30
0.0
 11
239.3950055832
 21
-196.5911157054
 31
0.0
  0
ARC
  5
CC
330
1F
100
AcDbEntity
  8
0
  6
Continuous
 62
     7
370
    25
100
AcDbCircle
 10
41.395004093
 20
-196.5911139538
 30
0.0
 40
2.0
100
AcDbArc
 50
150.9453959009
 51
180.0
  0
ARC
  5
CD
330
1F
100
AcDbEntity
  8
0
  6
Continuous
 62
     7
370
    25
100
AcDbCircle
 10
237.395004093
 20
-196.5911139538
 30
0.0
 40
2.000000000000022
100
AcDbArc
 50
0.0
 51
29.0546040991
  0
LINE
  5
CE
330
1F
100
AcDbEntity
  8
0
  6
Continuous
 62
     7
370
    25
100
AcDbLine
 10
239.14331752
 20
-195.6198282165
 30
0.0
 11
194.6466881329
 21
-115.5258968097
 31
0.0
  0
LINE
  5
CF
330
1F
100
AcDbEntity
  8
0
  6
Continuous
 62
     7
370
    25
100
AcDbLine
 10
84.1433200532
 20
-115.5258968097
 30
0.0
 11
39.6466906661
 21
-195.6198282165
 31
0.0
  0
ARC
  5
D0
330
1F
100
AcDbEntity
  8
0
  6
Continuous
 62
     7
370
    25
100
AcDbCircle
 10
82.395004093
 20
-114.554609841
 30
0.0
 40
2.000000000000014
100
AcDbArc
 50
330.9453959009
 51
0.0
  0
ARC
  5
D1
330
1F
100
AcDbEntity
  8
0
  6
Continuous
 62
     7
370
    25
100
AcDbCircle
 10
196.395004093
 20
-114.554609841
 30
0.0
 40
2.000000000000004
100
AcDbArc
 50
180.0
 51
209.0546040991
  0
LINE
  5
D2
330
1F
100
AcDbEntity
  8
0
  6
Continuous
 62
     7
370
    25
100
AcDbLine
 10
84.3950043911
 20
-33.0728657168
 30
0.0
 11
84.3950043911
 21
-114.5546093208
 31
0.0
  0
LINE
  5
D3
330
1F
100
AcDbEntity
  8
0
  6
Continuous
 62
     7
370
    25
100
AcDbLine
 10
194.395003795
 20
-114.5546093208
 30
0.0
 11
194.395003795
 21
-33.0728657168
 31
0.0
  0
LINE
  5
D4
330
1F
100
AcDbEntity
  8
0
  6
Continuous
 62
     7
370
    25
100
AcDbLine
 10
39.3950026029
 20
-308.0728567761
 30
0.0
 11
239.3950055832
 21
-308.0728567761
 31
0.0
  0
LINE
  5
D5
330
1F
100
AcDbEntity
  8
0
  6
Continuous
 62
     7
370
    25
100
AcDbLine
 10
84.3950043911
 20
-33.0728657168
 30
0.0
 11
194.395003795
 21
-33.0728657168
 31
0.0
  0
LINE
  5
D6
330
1F
100
AcDbEntity
  8
0
  6
Continuous
 62
     1
370
    25
100
AcDbLine
 10
39.3950026029
 20
-196.5911157054
 30
0.0
 11
239.3950055832
 21
-196.5911157054
 31
0.0
  0
LINE
  5
D7
330
1F
100
AcDbEntity
  8
0
  6
Continuous
 62
     1
370
    25
100
AcDbLine
 10
39.6466906661
 20
-195.6198282165
 30
0.0
 11
239.14331752
 21
-195.6198282165
 31
0.0
  0
LINE
  5
D8
330
1F
100
AcDbEntity
  8
0
  6
Continuous
 62
     1
370
    25
100
AcDbLine
 10
84.1433200532
 20
-115.5258968097
 30
0.0
 11
194.6466881329
 21
-115.5258968097
 31
0.0
  0
LINE
  5
D9
330
1F
100
AcDbEntity
  8
0
  6
Continuous
 62
     1
370
    25
100
AcDbLine
 10
84.3950043911
 20
-114.5546093208
 30
0.0
 11
194.395003795
 21
-114.5546093208
 31
0.0
  0
LINE
  5
DA
330
1F
100
AcDbEntity
  8
0
  6
Continuous
 62
     7
370
    25
100
AcDbLine
 10
486.4703748952
 20
-75.3437273528
 30
0.0
 11
407.6408798056
 21
-29.8364284876
 31
0.0
  0
LINE
  5
DB
330
1F
100
AcDbEntity
  8
0
  6
Continuous
 62
     7
370
    25
100
AcDbLine
 10
307.6490095368
 20
-203.0462019366
 30
0.0
 11
386.4785046264
 21
-248.5535008018
 31
0.0
  0
SPLINE
  5
DC
330
1F
100
AcDbEntity
  8
0
  6
Continuous
 62
     7
370
    25
100
AcDbSpline
210
0.0
220
0.0
230
1.0
 70
     8
 71
     3
 72
    13
 73
     9
 74
     0
 42
0.000000001
 43
0.00000001
 40
0.0
 40
0.0
 40
0.0
 40
0.0
 40
0.0631961729100146
 40
0.2888712817693529
 40
0.5139502890525031
 40
0.7384170439313088
 40
0.9623035286610453
 40
1.0
 40
1.0
 40
1.0
 40
1.0
 10
499.6648409482415
 20
-88.54445915606549
 30
0.0
 10
499.5164123779985
 20
-88.28713938687144
 30
0.0
 10
498.8379416832883
 20
-87.11092430724113
 30
0.0
 10
497.4700980508514
 20
-85.19546729284441
 30
0.0
 10
495.5678340836264
 20
-82.80777972709863
 30
0.0
 10
493.4967972892732
 20
-80.64854735109738
 30
0.0
 10
491.9343903612072
 20
-79.17828019000648
 30
0.0
 10
491.0227334153999
 20
-78.49289907750374
 30
0.0
 10
490.8913553988614
 20
-78.3941294563785
 30
0.0
  0
SPLINE
  5
DD
330
1F
100
AcDbEntity
  8
0
  6
Continuous
 62
     7
370
    25
100
AcDbSpline
210
0.0
220
0.0
230
1.0
 70
     8
 71
     3
 72
    12
 73
     8
 74
     0
 42
0.000000001
 43
0.00000001
 40
0.0
 40
0.0
 40
0.0
 40
0.0
 40
0.146024430148513
 40
0.3989656117969857
 40
0.6523590289183674
 40
0.9063332041067442
 40
1.0
 40
1.0
 40
1.0
 40
1.0
 10
391.7133170671671
 20
-250.988931218459
 30
0.0
 10
392.2396332208831
 20
-251.1898536072957
 30
0.0
 10
393.6776257954982
 20
-251.7388105435042
 30
0.0
 10
396.1419923855252
 20
-252.3966170693163
 30
0.0
 10
399.0937423879694
 20
-252.9644805402478
 30
0.0
 10
401.4837698956472
 20
-253.2727273453058
 30
0.0
 10
402.910552778927
 20
-253.318673951289
 30
0.0
 10
403.2949786441992
 20
-253.3310535950095
 30
0.0
  0
LINE
  5
DE
330
1F
100
AcDbEntity
  8
0
  6
Continuous
 62
     7
370
    25
100
AcDbLine
 10
410.8965763391
 20
-253.0983277603
 30
0.0
 11
479.2479183957
 21
-245.3089736818
 31
0.0
  0
LINE
  5
DF
330
1F
100
AcDbEntity
  8
0
  6
Continuous
 62
     7
370
    25
100
AcDbLine
 10
530.052932093
 20
-157.3025727324
 30
0.0
 11
502.617117051
 21
-94.216474736
 31
0.0
  0
LINE
  5
E0
330
1F
100
AcDbEntity
  8
0
  6
Continuous
 62
     7
370
    25
100
AcDbLine
 10
579.5970688165
 20
-181.0647378709
 30
0.0
 11
527.2429911661
 21
-150.8413721658
 31
0.0
  0
LINE
  5
E1
330
1F
100
AcDbEntity
  8
0
  6
Continuous
 62
     7
370
    25
100
AcDbLine
 10
472.247459884
 20
-246.1067503002
 30
0.0
 11
524.6015375344
 21
-276.3301160053
 31
0.0
  0
LWPOLYLINE
  5
E2
330
1F
100
AcDbEntity
  8
0
  6
Continuous
 62
     7
370
    25
100
AcDbPolyline
 90
      122
 70
   128
 43
0.0
 10
286.9342654988
 20
-157.2617214115
 10
287.0295805968
 20
-152.9685386239
 10
287.3152572043
 20
-148.5768876703
 10
287.7905314099
 20
-144.0986043236
 10
288.454123003
 20
-139.5457600516
 10
289.3042354742
 20
-134.9306346404
 10
290.3385876253
 20
-130.2656614443
 10
291.5543819592
 20
-125.5634212989
 10
292.9483468268
 20
-120.8365908135
 10
294.5167258903
 20
-116.0979073892
 10
296.2552833914
 20
-111.3601524887
 10
298.1593357615
 20
-106.6360984073
 10
300.2237516219
 20
-101.9384748122
 10
302.4429675884
 20
-97.2799444096
 10
304.8109935404
 20
-92.6730786099
 10
307.3214547668
 20
-88.1302814856
 10
309.967576162
 20
-83.6638049791
 10
312.74222964
 20
-79.2856911118
 10
315.6379341353
 20
-75.0077415659
 10
318.64687931
 20
-70.8414918305
 10
321.7609571641
 20
-66.7981747027
 10
324.9717725723
 20
-62.8886837862
 10
328.2706669914
 20
-59.123559805
 10
331.6487500704
 20
-55.5129541045
 10
335.096915456
 20
-52.0666012763
 10
338.6058658167
 20
-48.793792544
 10
342.1661418194
 20
-45.7033468685
 10
345.7681471533
 20
-42.8036025856
 10
349.4021689455
 20
-40.1023691179
 10
353.0584116758
 20
-37.6069317313
 10
356.7270194025
 20
-35.3240204533
 10
360.3981016101
 20
-33.259789067
 10
364.0617615272
 20
-31.4197926807
 10
367.7081231264
 20
-29.8090025594
 10
371.3273566432
 20
-28.4317609743
 10
374.9097044236
 20
-27.291778449
 10
378.4455089123
 20
-26.3921236858
 10
381.9252383361
 20
-25.7352269901
 10
385.3395150213
 20
-25.3228517559
 10
388.6791285644
 20
-25.1561233645
 10
391.9350832473
 20
-25.2354835612
 10
395.0985940864
 20
-25.5607170711
 10
398.1611395157
 20
-26.1309455205
 10
401.1144587529
 20
-26.944635041
 10
403.950591312
 20
-27.9995977945
 10
406.6618928084
 20
-29.2929767649
 10
409.2410533979
 20
-30.821295951
 10
411.6811188507
 20
-32.5804360332
 10
413.9755142583
 20
-34.5656419806
 10
416.1180493023
 20
-36.7715747629
 10
418.102955133
 20
-39.1922809351
 10
419.924873832
 20
-41.8212382648
 10
421.5789005601
 20
-44.6513587777
 10
423.0605677511
 20
-47.6750130907
 10
424.365892528
 20
-50.8840425843
 10
425.4913450921
 20
-54.2698095897
 10
426.4338961388
 20
-57.8231776215
 10
427.191001052
 20
-61.5345722132
 10
427.7606262464
 20
-65.3939824404
 10
428.1412333618
 20
-69.3910073078
 10
428.3317898007
 20
-73.5148743815
 10
428.3317898007
 20
-77.7544618441
 10
428.1412333618
 20
-82.0983406989
 10
427.7606262464
 20
-86.5348051881
 10
427.191001052
 20
-91.0518906657
 10
426.4338961388
 20
-95.6374199837
 10
425.4913450921
 20
-100.27903429
 10
424.365892528
 20
-104.9642211671
 10
423.0605677511
 20
-109.6803465686
 10
421.5789005601
 20
-114.4146974072
 10
419.924873832
 20
-119.1545165312
 10
418.102955133
 20
-123.8870164157
 10
416.1180493023
 20
-128.5994460793
 10
413.9755142583
 20
-133.2790971688
 10
411.6811188507
 20
-137.9133556671
 10
409.2410533979
 20
-142.4897353545
 10
406.6618928084
 20
-146.9958899723
 10
403.950591312
 20
-151.4196710179
 10
401.1144587529
 20
-155.7491627238
 10
398.1611395157
 20
-159.9726820553
 10
395.0985940864
 20
-164.0788501928
 10
391.9350832473
 20
-168.0565955717
 10
388.6791285644
 20
-171.8952010275
 10
385.3395150213
 20
-175.5843083591
 10
381.9252383361
 20
-179.113973077
 10
378.4455089123
 20
-182.4746864568
 10
374.9097044236
 20
-185.6573846609
 10
371.3273566432
 20
-188.6534928436
 10
367.7081231264
 20
-191.4549293313
 10
364.0617615272
 20
-194.0541387001
 10
360.3981016101
 20
-196.4441140167
 10
356.7270194025
 20
-198.6184239274
 10
353.0584116758
 20
-200.5711969715
 10
349.4021689455
 20
-202.2971675862
 10
345.7681471533
 20
-203.7916863707
 10
342.1661418194
 20
-205.050728924
 10
338.6058658167
 20
-206.0708904245
 10
335.096915456
 20
-206.8494295433
 10
331.6487500704
 20
-207.3842437277
 10
328.2706669914
 20
-207.6738897312
 10
324.9717725723
 20
-207.7175881731
 10
321.7609571641
 20
-207.5152258184
 10
318.64687931
 20
-207.06734645
 10
315.6379341353
 20
-206.375150866
 10
312.74222964
 20
-205.440510566
 10
309.967576162
 20
-204.2659434151
 10
307.3214547668
 20
-202.8546136407
 10
304.8109935404
 20
-201.2103333518
 10
302.4429675884
 20
-199.33753212
 10
300.2237516219
 20
-197.2412539333
 10
298.1593357615
 20
-194.9271541559
 10
296.2552833914
 20
-192.4014721474
 10
294.5167258903
 20
-189.6710130111
 10
292.9483468268
 20
-186.7431415093
 10
291.5543819592
 20
-183.6257486022
 10
290.3385876253
 20
-180.3272347156
 10
289.3042354742
 20
-176.8564990931
 10
288.454123003
 20
-173.2228926489
 10
287.7905314099
 20
-169.436214922
 10
287.3152572043
 20
-165.5066714928
 10
287.0295805968
 20
-161.4448557296
 10
286.9342654988
 20
-157.2617214115
  0
LWPOLYLINE
  5
E3
330
1F
100
AcDbEntity
  8
0
  6
Continuous
 62
     7
370
    25
100
AcDbPolyline
 90
      110
 70
   128
 43
0.0
 10
299.8036107625
 20
-149.8324065283
 10
299.8996792353
 20
-145.9288678863
 10
300.1875790891
 20
-141.9273707266
 10
300.6663409464
 20
-137.8412135528
 10
301.334379032
 20
-133.6839700986
 10
302.1894806364
 20
-129.4694433184
 10
303.2287955789
 20
-125.2116421919
 10
304.4488730863
 20
-120.9247094844
 10
305.8456670612
 20
-116.6228776396
 10
307.4145308134
 20
-112.3204474866
 10
309.1502592073
 20
-108.0317000301
 10
311.0470781245
 20
-103.7708918866
 10
313.0986918796
 20
-99.5521762007
 10
315.2982832198
 20
-95.3895600591
 10
317.6385449353
 20
-91.296880159
 10
320.1117035667
 20
-87.2877252428
 10
322.7095457469
 20
-83.3754178497
 10
325.4234392744
 20
-79.5729473968
 10
328.2443699921
 20
-75.8929549734
 10
331.1629654945
 20
-72.3476588177
 10
334.1695320064
 20
-68.9488360695
 10
337.2540807248
 20
-65.7077771445
 10
340.4063660142
 20
-62.6352515172
 10
343.6159156999
 20
-59.7414658984
 10
346.8720692633
 20
-57.0360300177
 10
350.1640094523
 20
-54.527932292
 10
353.4807998183
 20
-52.2255059882
 10
356.811423488
 20
-50.1363946732
 10
360.1448158434
 20
-48.2675455157
 10
363.4699038703
 20
-46.6251561523
 10
366.7756425424
 20
-45.2146962691
 10
370.0510486545
 20
-44.0408394008
 10
373.2852437098
 20
-43.1074929258
 10
376.4674835547
 20
-42.4177566234
 10
379.5871972327
 20
-41.9739124112
 10
382.6340192533
 20
-41.7774483029
 10
385.5978330558
 20
-41.8290028986
 10
388.4687868143
 20
-42.1284170976
 10
391.2373474386
 20
-42.674690757
 10
393.894319013
 20
-43.4660085497
 10
396.4308744071
 20
-44.4997430084
 10
398.8385842511
 20
-45.7724590918
 10
401.1094538147
 20
-47.2799324388
 10
403.235938812
 20
-49.017152412
 10
405.2109770117
 20
-50.9783464354
 10
407.028001408
 20
-53.1570058513
 10
408.6809850015
 20
-55.5458844039
 10
410.1644276285
 20
-58.1370545117
 10
411.4734086445
 20
-60.9219057523
 10
412.6035763873
 20
-63.8911859257
 10
413.5511797875
 20
-67.0350314764
 10
414.3130630997
 20
-70.3430024736
 10
414.8867027813
 20
-73.804105429
 10
415.2701916876
 20
-77.4068450065
 10
415.4622548762
 20
-81.1392533018
 10
415.4622548762
 20
-84.9889316681
 10
415.2701916876
 20
-88.9430914009
 10
414.8867027813
 20
-92.988597845
 10
414.3130630997
 20
-97.1120110791
 10
413.5511797875
 20
-101.2996338246
 10
412.6035763873
 20
-105.5375589729
 10
411.4734086445
 20
-109.8117030475
 10
410.1644276285
 20
-114.1078715998
 10
408.6809850015
 20
-118.411788108
 10
407.028001408
 20
-122.7091608942
 10
405.2109770117
 20
-126.9857120232
 10
403.235938812
 20
-131.2272366138
 10
401.1094538147
 20
-135.4196439047
 10
398.8385842511
 20
-139.5490074413
 10
396.4308744071
 20
-143.6016061391
 10
393.894319013
 20
-147.5639851179
 10
391.2373474386
 20
-151.4229769931
 10
388.4687868143
 20
-155.1657627096
 10
385.5978330558
 20
-158.7799095621
 10
382.6340192533
 20
-162.253410736
 10
379.5871972327
 20
-165.5747324546
 10
376.4674835547
 20
-168.7328329855
 10
373.2852437098
 20
-171.7172326018
 10
370.0510486545
 20
-174.5180082546
 10
366.7756425424
 20
-177.1258547876
 10
363.4699038703
 20
-179.5321195339
 10
360.1448158434
 20
-181.7287950894
 10
356.811423488
 20
-183.7085988246
 10
353.4807998183
 20
-185.4649437458
 10
350.1640094523
 20
-186.9920020858
 10
346.8720692633
 20
-188.2846976002
 10
343.6159156999
 20
-189.3387366011
 10
340.4063660142
 20
-190.150618172
 10
337.2540807248
 20
-190.7176436698
 10
334.1695320064
 20
-191.0379288897
 10
331.1629654945
 20
-191.1104139473
 10
328.2443699921
 20
-190.9348564319
 10
325.4234392744
 20
-190.5118412884
 10
322.7095457469
 20
-189.8427656062
 10
320.1117035667
 20
-188.9298629502
 10
317.6385449353
 20
-187.7761562098
 10
315.2982832198
 20
-186.3854849725
 10
313.0986918796
 20
-184.7624629356
 10
311.0470781245
 20
-182.9124900712
 10
309.1502592073
 20
-180.8417024337
 10
307.4145308134
 20
-178.5569843238
 10
305.8456670612
 20
-176.065925703
 10
304.4488730863
 20
-173.3767978542
 10
303.2287955789
 20
-170.4985366523
 10
302.1894806364
 20
-167.4407030164
 10
301.334379032
 20
-164.2134555337
 10
300.6663409464
 20
-160.8275124356
 10
300.1875790891
 20
-157.2941219363
 10
299.8996792353
 20
-153.6250268724
 10
299.8036107625
 20
-149.8324065283
  0
ARC
  5
E4
330
1F
100
AcDbEntity
  8
0
  6
Continuous
 62
     7
370
    25
100
AcDbCircle
 10
469.6468869376
 20
-104.4614994335
 30
0.0
 40
33.62847599887004
100
AcDbArc
 50
51.1699764205
 51
59.9818002921
  0
LWPOLYLINE
  5
E5
330
1F
100
AcDbEntity
  8
0
  6
Continuous
 62
     7
370
    25
100
AcDbPolyline
 90
        3
 70
   128
 43
0.0
 10
391.5012393938
 20
-250.9214999268
 10
388.7970712516
 20
-249.7732422802
 10
386.4785046264
 20
-248.5535008018
  0
ARC
  5
E6
330
1F
100
AcDbEntity
  8
0
  6
Continuous
 62
     7
370
    25
100
AcDbCircle
 10
452.7610924933
 20
-116.1375439272
 30
0.0
 40
54.43279118956065
100
AcDbArc
 50
10.2867003896
 51
30.3045715858
  0
ARC
  5
E7
330
1F
100
AcDbEntity
  8
0
  6
Continuous
 62
     7
370
    25
100
AcDbCircle
 10
405.3527590112
 20
-201.2185943916
 30
0.0
 40
52.16609758844388
100
AcDbArc
 50
267.9486719787
 51
289.6994421726
  0
ARC
  5
E8
330
1F
100
AcDbEntity
  8
0
  6
Continuous
 62
     7
370
    25
100
AcDbCircle
 10
500.464890911
 20
-169.9586755488
 30
0.0
 40
32.18119201469947
100
AcDbArc
 50
11.3746356274
 51
23.1585198007
  0
ARC
  5
E9
330
1F
100
AcDbEntity
  8
0
  6
Continuous
 62
     7
370
    25
100
AcDbCircle
 10
475.7828550434
 20
-215.3923676569
 30
0.0
 40
30.11660638392422
100
AcDbArc
 50
276.6067920203
 51
284.4859980269
  0
LWPOLYLINE
  5
EA
330
1F
100
AcDbEntity
  8
0
  6
Continuous
 62
     7
370
    25
100
AcDbPolyline
 90
       46
 70
   128
 43
0.0
 10
579.5970688165
 20
-181.0647378709
 10
580.7855414558
 20
-181.8128680655
 10
582.5664539055
 20
-183.1969666084
 10
584.1955797486
 20
-184.8077448967
 10
585.6648057168
 20
-186.6371792854
 10
586.9668087952
 20
-188.676157221
 10
588.0951036374
 20
-190.9145183109
 10
589.0440689076
 20
-193.3411136414
 10
589.8089788903
 20
-195.9438498884
 10
590.3860192958
 20
-198.7097638435
 10
590.77231887
 20
-201.6250745089
 10
590.9659493946
 20
-204.6752590489
 10
590.9659493946
 20
-207.8451202828
 10
590.77231887
 20
-211.1188658678
 10
590.3860192958
 20
-214.480188528
 10
589.8089788903
 20
-217.912339154
 10
589.0440689076
 20
-221.3982216687
 10
588.0951036374
 20
-224.9204689786
 10
586.9668087952
 20
-228.4615315646
 10
585.6648057168
 20
-232.0037702567
 10
584.1955797486
 20
-235.5295368408
 10
582.5664539055
 20
-239.0212637904
 10
580.7855414558
 20
-242.4615600803
 10
578.8617143113
 20
-245.8332857095
 10
576.8045582456
 20
-249.1196399104
 10
574.6243228455
 20
-252.3042508787
 10
572.3318688271
 20
-255.3712548565
 10
569.9386179864
 20
-258.3053706534
 10
567.4564912959
 20
-261.0919810099
 10
564.8978562216
 20
-263.7172055967
 10
562.2754602094
 20
-266.1679607053
 10
559.6023661483
 20
-268.4320390901
 10
556.8918927717
 20
-270.4981626252
 10
554.1575425468
 20
-272.3560361001
 10
551.4129383724
 20
-273.9964080985
 10
548.6717535257
 20
-275.4110992715
 10
545.9476446558
 20
-276.5930653542
 10
543.2541831301
 20
-277.5364185481
 10
540.6047881102
 20
-278.2364600713
 10
538.0126568281
 20
-278.6896991167
 10
535.490705317
 20
-278.8938779412
 10
533.0514972892
 20
-278.8479825056
 10
530.7071842079
 20
-278.5522375263
 10
528.4694460185
 20
-278.0081193973
 10
526.3494305624
 20
-277.2183394544
 10
524.6015375344
 20
-276.3301160053
  0
LWPOLYLINE
  5
EB
330
1F
100
AcDbEntity
  8
0
  6
Continuous
 62
     1
370
    25
100
AcDbPolyline
 90
       59
 70
   128
 43
0.0
 10
490.7323485103
 20
-78.264596787
 10
492.8050093479
 20
-80.0729408458
 10
494.9475443919
 20
-82.278873628
 10
496.9324502226
 20
-84.6995798002
 10
498.7543689216
 20
-87.32853713
 10
500.4083956497
 20
-90.1586576428
 10
501.8900628407
 20
-93.1823119558
 10
503.1953876176
 20
-96.3913414494
 10
504.3208401817
 20
-99.7771084549
 10
505.2633912284
 20
-103.3304764867
 10
506.0204961416
 20
-107.0418710784
 10
506.590121336
 20
-110.9012813056
 10
506.9707284514
 20
-114.898306173
 10
507.1612848903
 20
-119.0221732466
 10
507.1612848903
 20
-123.2617607092
 10
506.9707284514
 20
-127.6056395641
 10
506.590121336
 20
-132.0421040533
 10
506.0204961416
 20
-136.5591895308
 10
505.2633912284
 20
-141.1447188488
 10
504.3208401817
 20
-145.7863331552
 10
503.1953876176
 20
-150.4715200322
 10
501.8900628407
 20
-155.1876454338
 10
500.4083956497
 20
-159.9219962724
 10
498.7543689216
 20
-164.6618153963
 10
496.9324502226
 20
-169.3943152808
 10
494.9475443919
 20
-174.1067449444
 10
492.8050093479
 20
-178.7863960339
 10
490.5106139403
 20
-183.4206545323
 10
488.0705484875
 20
-187.9970342196
 10
485.491387898
 20
-192.5031888374
 10
482.7800864016
 20
-196.926969883
 10
479.9439538425
 20
-201.2564615889
 10
476.9906346053
 20
-205.4799809205
 10
473.928089176
 20
-209.586149058
 10
470.7645783369
 20
-213.5638944368
 10
467.508623654
 20
-217.4024998926
 10
464.1690101109
 20
-221.0916072243
 10
460.7547334257
 20
-224.6212719421
 10
457.2750040019
 20
-227.9819853219
 10
453.7391995132
 20
-231.164683526
 10
450.1568517328
 20
-234.1607917087
 10
446.5376182161
 20
-236.9622281965
 10
442.8912566168
 20
-239.5614375653
 10
439.2275966997
 20
-241.9514128818
 10
435.5565144921
 20
-244.1257227926
 10
431.8879067654
 20
-246.0784958366
 10
428.2316640351
 20
-247.8044664513
 10
424.5976422429
 20
-249.2989852358
 10
420.995636909
 20
-250.5580277892
 10
417.4353609063
 20
-251.5781892896
 10
413.9264105456
 20
-252.3567284084
 10
410.47824516
 20
-252.8915425929
 10
407.100162081
 20
-253.1811885963
 10
403.8012676619
 20
-253.2248870383
 10
400.5904522537
 20
-253.0225246836
 10
397.4763743996
 20
-252.5746453151
 10
394.4674292249
 20
-251.8824497312
 10
391.5717247296
 20
-250.9478094312
 10
391.5012393938
 20
-250.9214999268
  0
ARC
  5
EC
330
1F
100
AcDbEntity
  8
0
  6
Continuous
 62
     1
370
    25
100
AcDbCircle
 10
515.5387230184
 20
-207.5914538278
 30
0.0
 40
139.1646470130003
100
AcDbArc
 50
140.1725165136
 51
159.832860216
  0
LWPOLYLINE
  5
ED
330
1F
100
AcDbEntity
  8
0
  6
Continuous
 62
     1
370
    25
100
AcDbPolyline
 90
       39
 70
   128
 43
0.0
 10
506.3189590494
 20
-106.4172719842
 10
506.8255799735
 20
-109.3873689411
 10
507.3075660647
 20
-113.3367937814
 10
507.5972887698
 20
-117.4205454764
 10
507.6939525668
 20
-121.6274314585
 10
507.5972887698
 20
-125.9459230851
 10
507.3075660647
 20
-130.3641814951
 10
506.8255799735
 20
-134.8700956311
 10
506.1526423168
 20
-139.4513202618
 10
505.2906075558
 20
-144.0952934745
 10
504.2418359142
 20
-148.7892876233
 10
503.0091986459
 20
-153.5204405084
 10
501.5960780356
 20
-158.2757774291
 10
500.006346325
 20
-163.0422674569
 10
498.2443604445
 20
-167.8068492899
 10
496.3149514767
 20
-172.5564586288
 10
494.2234035826
 20
-177.2780829287
 10
491.9754540021
 20
-181.9587705238
 10
489.5772614433
 20
-186.5857036295
 10
487.0354008147
 20
-191.1461952999
 10
484.3568368829
 20
-195.6277441786
 10
481.5489137364
 20
-200.0180679581
 10
478.6193310774
 20
-204.3051292334
 10
475.5761099781
 20
-208.477185689
 10
472.4275981488
 20
-212.5227931418
 10
469.1824225223
 20
-216.4308694151
 10
465.8494813522
 20
-220.1906989008
 10
462.4379073337
 20
-223.7919781836
 10
458.9570491645
 20
-227.2248388534
 10
455.4164517889
 20
-230.4798649938
 10
451.8258182016
 20
-233.548139567
 10
448.1949903502
 20
-236.4212554384
 10
444.5339195008
 20
-239.0913264011
 10
440.8526405547
 20
-241.5510445877
 10
437.1612437307
 20
-243.7936663996
 10
433.4698469067
 20
-245.8130406415
 10
429.7885679606
 20
-247.6036366556
 10
426.1274971112
 20
-249.1605481218
 10
422.9372249989
 20
-250.3316099123
  0
LWPOLYLINE
  5
EE
330
1F
100
AcDbEntity
  8
0
  6
Continuous
 62
     1
370
    25
100
AcDbPolyline
 90
       31
 70
   128
 43
0.0
 10
532.0139986124
 20
-163.6117926343
 10
532.2581263299
 20
-164.9148755498
 10
532.6461908034
 20
-167.8435279418
 10
532.840709046
 20
-170.9076698158
 10
532.840709046
 20
-174.0920366892
 10
532.6461908034
 20
-177.3807645456
 10
532.2581263299
 20
-180.7574666417
 10
531.6784438439
 20
-184.2053243808
 10
530.9100356727
 20
-187.7071580369
 10
529.9567266429
 20
-191.2455237107
 10
528.8232688118
 20
-194.8027897555
 10
527.5153072227
 20
-198.3612379155
 10
526.0393588321
 20
-201.9031393705
 10
524.402775631
 20
-205.4108475084
 10
522.6137130345
 20
-208.8668876573
 10
520.6810851011
 20
-212.2540392109
 10
518.6145144832
 20
-215.5554314425
 10
516.4243034509
 20
-218.7546165065
 10
514.1213588185
 20
-221.8356553635
 10
511.7171550655
 20
-224.7831968655
 10
509.2236697993
 20
-227.5825606398
 10
506.6533271208
 20
-230.2197971603
 10
504.0189297935
 20
-232.6817664495
 10
501.3336039267
 20
-234.9562065144
 10
498.610726535
 20
-237.0317842911
 10
495.8638637999
 20
-238.8981617039
 10
493.1067000704
 20
-240.5460366528
 10
490.352971556
 20
-241.9672025844
 10
487.6163970971
 20
-243.1545793316
 10
484.9106095939
 20
-244.1022496574
 10
483.3163253651
 20
-244.5515309678
  0
ARC
  5
EF
330
1F
100
AcDbEntity
  8
0
  6
Continuous
 62
     1
370
    25
100
AcDbCircle
 10
517.8664370504
 20
-208.9352103958
 30
0.0
 40
139.5008376128688
100
AcDbArc
 50
143.6078493561
 51
156.397529076
  0
LWPOLYLINE
  5
F0
330
1F
100
AcDbEntity
  8
0
  6
Continuous
 62
     1
370
    25
100
AcDbPolyline
 90
       38
 70
   128
 43
0.0
 10
528.9051601384
 20
-154.6633732556
 10
529.3505153499
 20
-155.4149789992
 10
530.4788101922
 20
-157.653340089
 10
531.4277754623
 20
-160.0799354196
 10
532.1926854451
 20
-162.6826716666
 10
532.7697258506
 20
-165.4485856216
 10
533.1560254248
 20
-168.3638962871
 10
533.3496559494
 20
-171.414080827
 10
533.3496559494
 20
-174.5839420609
 10
533.1560254248
 20
-177.8576876459
 10
532.7697258506
 20
-181.2190103061
 10
532.1926854451
 20
-184.6511609321
 10
531.4277754623
 20
-188.1370434469
 10
530.4788101922
 20
-191.6592907568
 10
529.3505153499
 20
-195.2003533427
 10
528.0485122715
 20
-198.7425920348
 10
526.5792863033
 20
-202.268358619
 10
524.9501604602
 20
-205.7600855685
 10
523.1692480106
 20
-209.2003818584
 10
521.245420866
 20
-212.5721074877
 10
519.1882648003
 20
-215.8584616886
 10
517.0080294003
 20
-219.0430726568
 10
514.7155753819
 20
-222.1100766346
 10
512.3223245411
 20
-225.0441924316
 10
509.8401978506
 20
-227.830802788
 10
507.2815627763
 20
-230.4560273748
 10
504.6591667642
 20
-232.9067824834
 10
501.9860727031
 20
-235.1708608683
 10
499.2755993264
 20
-237.2369844034
 10
496.5412491016
 20
-239.0948578783
 10
493.7966449272
 20
-240.7352298767
 10
491.0554600804
 20
-242.1499210496
 10
488.3313512105
 20
-243.3318871323
 10
485.6378896849
 20
-244.2752403262
 10
482.988494665
 20
-244.9752818495
 10
480.3963633828
 20
-245.4285208949
 10
477.8744118717
 20
-245.6326997193
 10
476.3884483363
 20
-245.6348401545
  0
ENDSEC
  0
SECTION
  2
OBJECTS
  0
DICTIONARY
  5
C
330
0
100
AcDbDictionary
281
     1
  3
ACAD_GROUP
350
D
  3
ACAD_LAYOUT
350
1A
  3
ACAD_MLINESTYLE
350
17
  3
ACAD_PLOTSETTINGS
350
19
  3
ACAD_PLOTSTYLENAME
350
E
  3
ACAD_SCALELIST
350
47
  0
DICTIONARY
  5
D
102
{ACAD_REACTORS
330
C
102
}
330
C
100
AcDbDictionary
281
     1
  0
DICTIONARY
  5
1A
102
{ACAD_REACTORS
330
C
102
}
330
C
100
AcDbDictionary
281
     1
  3
Layout1
350
1E
  3
Layout2
350
26
  3
Model
350
22
  0
DICTIONARY
  5
17
102
{ACAD_REACTORS
330
C
102
}
330
C
100
AcDbDictionary
281
     1
  3
Standard
350
18
  0
DICTIONARY
  5
19
102
{ACAD_REACTORS
330
C
102
}
330
C
100
AcDbDictionary
281
     1
  0
ACDBDICTIONARYWDFLT
  5
E
102
{ACAD_REACTORS
330
C
102
}
330
C
100
AcDbDictionary
281
     1
  3
Normal
350
F
100
AcDbDictionaryWithDefault
340
F
  0
DICTIONARY
  5
47
102
{ACAD_REACTORS
330
C
102
}
330
C
100
AcDbDictionary
281
     1
  3
A0
350
48
  3
A1
350
49
  3
A2
350
4A
  3
A3
350
4B
  3
A4
350
4C
  3
A5
350
4D
  3
A6
350
4E
  3
A7
350
4F
  3
A8
350
50
  3
A9
350
51
  3
B0
350
52
  3
B1
350
53
  3
B2
350
54
  3
B3
350
55
  3
B4
350
56
  3
B5
350
57
  3
B6
350
58
  3
B7
350
59
  3
B8
350
5A
  3
B9
350
5B
  3
C0
350
5C
  3
C1
350
5D
  3
C2
350
5E
  3
C3
350
5F
  3
C4
350
60
  3
C5
350
61
  3
C6
350
62
  3
C7
350
63
  3
C8
350
64
  3
C9
350
65
  3
D0
350
66
  3
D1
350
67
  3
D2
350
68
  0
LAYOUT
  5
1E
102
{ACAD_REACTORS
330
1A
102
}
330
1A
100
AcDbPlotSettings
  1

  2
none_device
  4

  6

 40
0.0
 41
0.0
 42
0.0
 43
0.0
 44
0.0
 45
0.0
 46
0.0
 47
0.0
 48
0.0
 49
0.0
140
0.0
141
0.0
142
1.0
143
1.0
 70
   688
 72
     1
 73
     0
 74
     5
  7

 75
    16
147
1.0
148
0.0
149
0.0
100
AcDbLayout
  1
Layout1
 70
     1
 71
     1
 10
0.0
 20
0.0
 11
420.0
 21
297.0
 12
0.0
 22
0.0
 32
0.0
 14
1.0000000000E+20
 24
1.0000000000E+20
 34
1.0000000000E+20
 15
-1.0000000000E+20
 25
-1.0000000000E+20
 35
-1.0000000000E+20
146
0.0
 13
0.0
 23
0.0
 33
0.0
 16
1.0
 26
0.0
 36
0.0
 17
0.0
 27
1.0
 37
0.0
 76
     0
330
1B
  0
LAYOUT
  5
26
102
{ACAD_REACTORS
330
1A
102
}
330
1A
100
AcDbPlotSettings
  1

  2
none_device
  4

  6

 40
0.0
 41
0.0
 42
0.0
 43
0.0
 44
0.0
 45
0.0
 46
0.0
 47
0.0
 48
0.0
 49
0.0
140
0.0
141
0.0
142
1.0
143
1.0
 70
   688
 72
     1
 73
     0
 74
     5
  7

 75
    16
147
1.0
148
0.0
149
0.0
100
AcDbLayout
  1
Layout2
 70
     1
 71
     2
 10
0.0
 20
0.0
 11
0.0
 21
0.0
 12
0.0
 22
0.0
 32
0.0
 14
0.0
 24
0.0
 34
0.0
 15
0.0
 25
0.0
 35
0.0
146
0.0
 13
0.0
 23
0.0
 33
0.0
 16
1.0
 26
0.0
 36
0.0
 17
0.0
 27
1.0
 37
0.0
 76
     0
330
23
  0
LAYOUT
  5
22
102
{ACAD_REACTORS
330
1A
102
}
330
1A
100
AcDbPlotSettings
  1

  2
none_device
  4
Letter_(8.50_x_11.00_Inches)
  6

 40
6.35
 41
6.35
 42
6.35000508
 43
6.35000508
 44
215.9
 45
279.4
 46
0.0
 47
0.0
 48
0.0
 49
0.0
140
0.0
141
0.0
142
1.0
143
1.0
 70
  1712
 72
     1
 73
     0
 74
     0
  7

 75
     0
147
1.0
148
0.0
149
0.0
100
AcDbLayout
  1
Model
 70
     1
 71
     0
 10
0.0
 20
0.0
 11
279.4
 21
215.9
 12
0.0
 22
0.0
 32
0.0
 14
0.0
 24
0.0
 34
0.0
 15
279.4
 25
215.9
 35
0.0
146
0.0
 13
0.0
 23
0.0
 33
0.0
 16
1.0
 26
0.0
 36
0.0
 17
0.0
 27
1.0
 37
0.0
 76
     0
330
1F
331
29
  0
MLINESTYLE
  5
18
102
{ACAD_REACTORS
330
17
102
}
330
17
100
AcDbMlineStyle
  2
Standard
 70
     0
  3

 62
   256
 51
90.0
 52
90.0
 71
     2
 49
0.5
 62
   256
  6
BYLAYER
 49
-0.5
 62
   256
  6
BYLAYER
  0
ACDBPLACEHOLDER
  5
F
102
{ACAD_REACTORS
330
E
102
}
330
E
  0
SCALE
  5
48
102
{ACAD_REACTORS
330
47
102
}
330
47
100
AcDbScale
 70
     0
300
1:1
140
1.0
141
1.0
290
     1
  0
SCALE
  5
49
102
{ACAD_REACTORS
330
47
102
}
330
47
100
AcDbScale
 70
     0
300
1:2
140
1.0
141
2.0
290
     0
  0
SCALE
  5
4A
102
{ACAD_REACTORS
330
47
102
}
330
47
100
AcDbScale
 70
     0
300
1:4
140
1.0
141
4.0
290
     0
  0
SCALE
  5
4B
102
{ACAD_REACTORS
330
47
102
}
330
47
100
AcDbScale
 70
     0
300
1:5
140
1.0
141
5.0
290
     0
  0
SCALE
  5
4C
102
{ACAD_REACTORS
330
47
102
}
330
47
100
AcDbScale
 70
     0
300
1:8
140
1.0
141
8.0
290
     0
  0
SCALE
  5
4D
102
{ACAD_REACTORS
330
47
102
}
330
47
100
AcDbScale
 70
     0
300
1:10
140
1.0
141
10.0
290
     0
  0
SCALE
  5
4E
102
{ACAD_REACTORS
330
47
102
}
330
47
100
AcDbScale
 70
     0
300
1:16
140
1.0
141
16.0
290
     0
  0
SCALE
  5
4F
102
{ACAD_REACTORS
330
47
102
}
330
47
100
AcDbScale
 70
     0
300
1:20
140
1.0
141
20.0
290
     0
  0
SCALE
  5
50
102
{ACAD_REACTORS
330
47
102
}
330
47
100
AcDbScale
 70
     0
300
1:30
140
1.0
141
30.0
290
     0
  0
SCALE
  5
51
102
{ACAD_REACTORS
330
47
102
}
330
47
100
AcDbScale
 70
     0
300
1:40
140
1.0
141
40.0
290
     0
  0
SCALE
  5
52
102
{ACAD_REACTORS
330
47
102
}
330
47
100
AcDbScale
 70
     0
300
1:50
140
1.0
141
50.0
290
     0
  0
SCALE
  5
53
102
{ACAD_REACTORS
330
47
102
}
330
47
100
AcDbScale
 70
     0
300
1:100
140
1.0
141
100.0
290
     0
  0
SCALE
  5
54
102
{ACAD_REACTORS
330
47
102
}
330
47
100
AcDbScale
 70
     0
300
2:1
140
2.0
141
1.0
290
     0
  0
SCALE
  5
55
102
{ACAD_REACTORS
330
47
102
}
330
47
100
AcDbScale
 70
     0
300
4:1
140
4.0
141
1.0
290
     0
  0
SCALE
  5
56
102
{ACAD_REACTORS
330
47
102
}
330
47
100
AcDbScale
 70
     0
300
8:1
140
8.0
141
1.0
290
     0
  0
SCALE
  5
57
102
{ACAD_REACTORS
330
47
102
}
330
47
100
AcDbScale
 70
     0
300
10:1
140
10.0
141
1.0
290
     0
  0
SCALE
  5
58
102
{ACAD_REACTORS
330
47
102
}
330
47
100
AcDbScale
 70
     0
300
100:1
140
100.0
141
1.0
290
     0
  0
SCALE
  5
59
102
{ACAD_REACTORS
330
47
102
}
330
47
100
AcDbScale
 70
     0
300
1/128" = 1'-0"
140
0.0078125
141
12.0
290
     0
  0
SCALE
  5
5A
102
{ACAD_REACTORS
330
47
102
}
330
47
100
AcDbScale
 70
     0
300
1/64" = 1'-0"
140
0.015625
141
12.0
290
     0
  0
SCALE
  5
5B
102
{ACAD_REACTORS
330
47
102
}
330
47
100
AcDbScale
 70
     0
300
1/32" = 1'-0"
140
0.03125
141
12.0
290
     0
  0
SCALE
  5
5C
102
{ACAD_REACTORS
330
47
102
}
330
47
100
AcDbScale
 70
     0
300
1/16" = 1'-0"
140
0.0625
141
12.0
290
     0
  0
SCALE
  5
5D
102
{ACAD_REACTORS
330
47
102
}
330
47
100
AcDbScale
 70
     0
300
3/32" = 1'-0"
140
0.09375
141
12.0
290
     0
  0
SCALE
  5
5E
102
{ACAD_REACTORS
330
47
102
}
330
47
100
AcDbScale
 70
     0
300
1/8" = 1'-0"
140
0.125
141
12.0
290
     0
  0
SCALE
  5
5F
102
{ACAD_REACTORS
330
47
102
}
330
47
100
AcDbScale
 70
     0
300
3/16" = 1'-0"
140
0.1875
141
12.0
290
     0
  0
SCALE
  5
60
102
{ACAD_REACTORS
330
47
102
}
330
47
100
AcDbScale
 70
     0
300
1/4" = 1'-0"
140
0.25
141
12.0
290
     0
  0
SCALE
  5
61
102
{ACAD_REACTORS
330
47
102
}
330
47
100
AcDbScale
 70
     0
300
3/8" = 1'-0"
140
0.375
141
12.0
290
     0
  0
SCALE
  5
62
102
{ACAD_REACTORS
330
47
102
}
330
47
100
AcDbScale
 70
     0
300
1/2" = 1'-0"
140
0.5
141
12.0
290
     0
  0
SCALE
  5
63
102
{ACAD_REACTORS
330
47
102
}
330
47
100
AcDbScale
 70
     0
300
3/4" = 1'-0"
140
0.75
141
12.0
290
     0
  0
SCALE
  5
64
102
{ACAD_REACTORS
330
47
102
}
330
47
100
AcDbScale
 70
     0
300
1" = 1'-0"
140
1.0
141
12.0
290
     0
  0
SCALE
  5
65
102
{ACAD_REACTORS
330
47
102
}
330
47
100
AcDbScale
 70
     0
300
1-1/2" = 1'-0"
140
1.5
141
12.0
290
     0
  0
SCALE
  5
66
102
{ACAD_REACTORS
330
47
102
}
330
47
100
AcDbScale
 70
     0
300
3" = 1'-0"
140
3.0
141
12.0
290
     0
  0
SCALE
  5
67
102
{ACAD_REACTORS
330
47
102
}
330
47
100
AcDbScale
 70
     0
300
6" = 1'-0"
140
6.0
141
12.0
290
     0
  0
SCALE
  5
68
102
{ACAD_REACTORS
330
47
102
}
330
47
100
AcDbScale
 70
     0
300
1'-0" = 1'-0"
140
12.0
141
12.0
290
     0
  0
ENDSEC
  0
EOF
